ISO-10303-21;
HEADER;
/* Generated by software containing ST-Developer
 * from STEP Tools, Inc. (www.steptools.com) 
 */

FILE_DESCRIPTION(
/* description */ (''),
/* implementation_level */ '2;1');

FILE_NAME(
/* name */ 
'C:\\Work\\Designs\\Montageplatte Hartpapier\\10 INTERNET\\03 STEP\\09
12236250 - Montageplatte MBI 3625xx - Index01.stp',
/* time_stamp */ '2022-09-27T08:17:51+02:00',
/* author */ ('alexander.rose'),
/* organization */ (''),
/* preprocessor_version */ 'ST-DEVELOPER v18.1',
/* originating_system */ 'Autodesk Inventor 2022',
/* authorisation */ '');

FILE_SCHEMA (('AUTOMOTIVE_DESIGN { 1 0 10303 214 3 1 1 }'));
ENDSEC;

DATA;
#10=MECHANICAL_DESIGN_GEOMETRIC_PRESENTATION_REPRESENTATION('',(#13),#504);
#11=SHAPE_REPRESENTATION_RELATIONSHIP('SRR','None',#511,#12);
#12=ADVANCED_BREP_SHAPE_REPRESENTATION('',(#14),#503);
#13=STYLED_ITEM('',(#520),#14);
#14=MANIFOLD_SOLID_BREP('Volumenk\X\F6rper1',#291);
#15=FACE_BOUND('',#64,.T.);
#16=FACE_BOUND('',#65,.T.);
#17=FACE_BOUND('',#66,.T.);
#18=FACE_BOUND('',#67,.T.);
#19=FACE_BOUND('',#68,.T.);
#20=FACE_BOUND('',#69,.T.);
#21=FACE_BOUND('',#70,.T.);
#22=FACE_BOUND('',#71,.T.);
#23=FACE_BOUND('',#73,.T.);
#24=FACE_BOUND('',#74,.T.);
#25=FACE_BOUND('',#75,.T.);
#26=FACE_BOUND('',#76,.T.);
#27=FACE_BOUND('',#77,.T.);
#28=FACE_BOUND('',#78,.T.);
#29=FACE_BOUND('',#79,.T.);
#30=FACE_BOUND('',#80,.T.);
#31=PLANE('',#338);
#32=PLANE('',#339);
#33=PLANE('',#340);
#34=PLANE('',#341);
#35=PLANE('',#342);
#36=PLANE('',#343);
#37=FACE_OUTER_BOUND('',#51,.T.);
#38=FACE_OUTER_BOUND('',#52,.T.);
#39=FACE_OUTER_BOUND('',#53,.T.);
#40=FACE_OUTER_BOUND('',#54,.T.);
#41=FACE_OUTER_BOUND('',#55,.T.);
#42=FACE_OUTER_BOUND('',#56,.T.);
#43=FACE_OUTER_BOUND('',#57,.T.);
#44=FACE_OUTER_BOUND('',#58,.T.);
#45=FACE_OUTER_BOUND('',#59,.T.);
#46=FACE_OUTER_BOUND('',#60,.T.);
#47=FACE_OUTER_BOUND('',#61,.T.);
#48=FACE_OUTER_BOUND('',#62,.T.);
#49=FACE_OUTER_BOUND('',#63,.T.);
#50=FACE_OUTER_BOUND('',#72,.T.);
#51=EDGE_LOOP('',(#197,#198,#199,#200));
#52=EDGE_LOOP('',(#201,#202,#203,#204));
#53=EDGE_LOOP('',(#205,#206,#207,#208));
#54=EDGE_LOOP('',(#209,#210,#211,#212));
#55=EDGE_LOOP('',(#213,#214,#215,#216));
#56=EDGE_LOOP('',(#217,#218,#219,#220));
#57=EDGE_LOOP('',(#221,#222,#223,#224));
#58=EDGE_LOOP('',(#225,#226,#227,#228));
#59=EDGE_LOOP('',(#229,#230,#231,#232));
#60=EDGE_LOOP('',(#233,#234,#235,#236));
#61=EDGE_LOOP('',(#237,#238,#239,#240));
#62=EDGE_LOOP('',(#241,#242,#243,#244));
#63=EDGE_LOOP('',(#245,#246,#247,#248));
#64=EDGE_LOOP('',(#249));
#65=EDGE_LOOP('',(#250));
#66=EDGE_LOOP('',(#251));
#67=EDGE_LOOP('',(#252));
#68=EDGE_LOOP('',(#253));
#69=EDGE_LOOP('',(#254));
#70=EDGE_LOOP('',(#255));
#71=EDGE_LOOP('',(#256));
#72=EDGE_LOOP('',(#257,#258,#259,#260));
#73=EDGE_LOOP('',(#261));
#74=EDGE_LOOP('',(#262));
#75=EDGE_LOOP('',(#263));
#76=EDGE_LOOP('',(#264));
#77=EDGE_LOOP('',(#265));
#78=EDGE_LOOP('',(#266));
#79=EDGE_LOOP('',(#267));
#80=EDGE_LOOP('',(#268));
#81=LINE('',#431,#101);
#82=LINE('',#437,#102);
#83=LINE('',#443,#103);
#84=LINE('',#449,#104);
#85=LINE('',#455,#105);
#86=LINE('',#461,#106);
#87=LINE('',#467,#107);
#88=LINE('',#473,#108);
#89=LINE('',#478,#109);
#90=LINE('',#480,#110);
#91=LINE('',#482,#111);
#92=LINE('',#483,#112);
#93=LINE('',#486,#113);
#94=LINE('',#488,#114);
#95=LINE('',#489,#115);
#96=LINE('',#492,#116);
#97=LINE('',#494,#117);
#98=LINE('',#495,#118);
#99=LINE('',#497,#119);
#100=LINE('',#498,#120);
#101=VECTOR('',#350,2.25);
#102=VECTOR('',#357,2.25);
#103=VECTOR('',#364,2.25);
#104=VECTOR('',#371,2.25);
#105=VECTOR('',#378,2.25);
#106=VECTOR('',#385,2.25);
#107=VECTOR('',#392,2.25);
#108=VECTOR('',#399,2.25);
#109=VECTOR('',#404,10.);
#110=VECTOR('',#405,10.);
#111=VECTOR('',#406,10.);
#112=VECTOR('',#407,10.);
#113=VECTOR('',#410,10.);
#114=VECTOR('',#411,10.);
#115=VECTOR('',#412,10.);
#116=VECTOR('',#415,10.);
#117=VECTOR('',#416,10.);
#118=VECTOR('',#417,10.);
#119=VECTOR('',#420,10.);
#120=VECTOR('',#421,10.);
#121=CIRCLE('',#315,2.25);
#122=CIRCLE('',#316,2.25);
#123=CIRCLE('',#318,2.25);
#124=CIRCLE('',#319,2.25);
#125=CIRCLE('',#321,2.25);
#126=CIRCLE('',#322,2.25);
#127=CIRCLE('',#324,2.25);
#128=CIRCLE('',#325,2.25);
#129=CIRCLE('',#327,2.25);
#130=CIRCLE('',#328,2.25);
#131=CIRCLE('',#330,2.25);
#132=CIRCLE('',#331,2.25);
#133=CIRCLE('',#333,2.25);
#134=CIRCLE('',#334,2.25);
#135=CIRCLE('',#336,2.25);
#136=CIRCLE('',#337,2.25);
#137=VERTEX_POINT('',#428);
#138=VERTEX_POINT('',#430);
#139=VERTEX_POINT('',#434);
#140=VERTEX_POINT('',#436);
#141=VERTEX_POINT('',#440);
#142=VERTEX_POINT('',#442);
#143=VERTEX_POINT('',#446);
#144=VERTEX_POINT('',#448);
#145=VERTEX_POINT('',#452);
#146=VERTEX_POINT('',#454);
#147=VERTEX_POINT('',#458);
#148=VERTEX_POINT('',#460);
#149=VERTEX_POINT('',#464);
#150=VERTEX_POINT('',#466);
#151=VERTEX_POINT('',#470);
#152=VERTEX_POINT('',#472);
#153=VERTEX_POINT('',#476);
#154=VERTEX_POINT('',#477);
#155=VERTEX_POINT('',#479);
#156=VERTEX_POINT('',#481);
#157=VERTEX_POINT('',#485);
#158=VERTEX_POINT('',#487);
#159=VERTEX_POINT('',#491);
#160=VERTEX_POINT('',#493);
#161=EDGE_CURVE('',#137,#137,#121,.T.);
#162=EDGE_CURVE('',#137,#138,#81,.T.);
#163=EDGE_CURVE('',#138,#138,#122,.T.);
#164=EDGE_CURVE('',#139,#139,#123,.T.);
#165=EDGE_CURVE('',#139,#140,#82,.T.);
#166=EDGE_CURVE('',#140,#140,#124,.T.);
#167=EDGE_CURVE('',#141,#141,#125,.T.);
#168=EDGE_CURVE('',#141,#142,#83,.T.);
#169=EDGE_CURVE('',#142,#142,#126,.T.);
#170=EDGE_CURVE('',#143,#143,#127,.T.);
#171=EDGE_CURVE('',#143,#144,#84,.T.);
#172=EDGE_CURVE('',#144,#144,#128,.T.);
#173=EDGE_CURVE('',#145,#145,#129,.T.);
#174=EDGE_CURVE('',#145,#146,#85,.T.);
#175=EDGE_CURVE('',#146,#146,#130,.T.);
#176=EDGE_CURVE('',#147,#147,#131,.T.);
#177=EDGE_CURVE('',#147,#148,#86,.T.);
#178=EDGE_CURVE('',#148,#148,#132,.T.);
#179=EDGE_CURVE('',#149,#149,#133,.T.);
#180=EDGE_CURVE('',#149,#150,#87,.T.);
#181=EDGE_CURVE('',#150,#150,#134,.T.);
#182=EDGE_CURVE('',#151,#151,#135,.T.);
#183=EDGE_CURVE('',#151,#152,#88,.T.);
#184=EDGE_CURVE('',#152,#152,#136,.T.);
#185=EDGE_CURVE('',#153,#154,#89,.T.);
#186=EDGE_CURVE('',#154,#155,#90,.T.);
#187=EDGE_CURVE('',#156,#155,#91,.T.);
#188=EDGE_CURVE('',#153,#156,#92,.T.);
#189=EDGE_CURVE('',#157,#153,#93,.T.);
#190=EDGE_CURVE('',#158,#156,#94,.T.);
#191=EDGE_CURVE('',#157,#158,#95,.T.);
#192=EDGE_CURVE('',#159,#157,#96,.T.);
#193=EDGE_CURVE('',#160,#158,#97,.T.);
#194=EDGE_CURVE('',#159,#160,#98,.T.);
#195=EDGE_CURVE('',#154,#159,#99,.T.);
#196=EDGE_CURVE('',#155,#160,#100,.T.);
#197=ORIENTED_EDGE('',*,*,#161,.F.);
#198=ORIENTED_EDGE('',*,*,#162,.T.);
#199=ORIENTED_EDGE('',*,*,#163,.F.);
#200=ORIENTED_EDGE('',*,*,#162,.F.);
#201=ORIENTED_EDGE('',*,*,#164,.F.);
#202=ORIENTED_EDGE('',*,*,#165,.T.);
#203=ORIENTED_EDGE('',*,*,#166,.F.);
#204=ORIENTED_EDGE('',*,*,#165,.F.);
#205=ORIENTED_EDGE('',*,*,#167,.F.);
#206=ORIENTED_EDGE('',*,*,#168,.T.);
#207=ORIENTED_EDGE('',*,*,#169,.F.);
#208=ORIENTED_EDGE('',*,*,#168,.F.);
#209=ORIENTED_EDGE('',*,*,#170,.F.);
#210=ORIENTED_EDGE('',*,*,#171,.T.);
#211=ORIENTED_EDGE('',*,*,#172,.F.);
#212=ORIENTED_EDGE('',*,*,#171,.F.);
#213=ORIENTED_EDGE('',*,*,#173,.F.);
#214=ORIENTED_EDGE('',*,*,#174,.T.);
#215=ORIENTED_EDGE('',*,*,#175,.F.);
#216=ORIENTED_EDGE('',*,*,#174,.F.);
#217=ORIENTED_EDGE('',*,*,#176,.F.);
#218=ORIENTED_EDGE('',*,*,#177,.T.);
#219=ORIENTED_EDGE('',*,*,#178,.F.);
#220=ORIENTED_EDGE('',*,*,#177,.F.);
#221=ORIENTED_EDGE('',*,*,#179,.F.);
#222=ORIENTED_EDGE('',*,*,#180,.T.);
#223=ORIENTED_EDGE('',*,*,#181,.F.);
#224=ORIENTED_EDGE('',*,*,#180,.F.);
#225=ORIENTED_EDGE('',*,*,#182,.F.);
#226=ORIENTED_EDGE('',*,*,#183,.T.);
#227=ORIENTED_EDGE('',*,*,#184,.F.);
#228=ORIENTED_EDGE('',*,*,#183,.F.);
#229=ORIENTED_EDGE('',*,*,#185,.T.);
#230=ORIENTED_EDGE('',*,*,#186,.T.);
#231=ORIENTED_EDGE('',*,*,#187,.F.);
#232=ORIENTED_EDGE('',*,*,#188,.F.);
#233=ORIENTED_EDGE('',*,*,#189,.T.);
#234=ORIENTED_EDGE('',*,*,#188,.T.);
#235=ORIENTED_EDGE('',*,*,#190,.F.);
#236=ORIENTED_EDGE('',*,*,#191,.F.);
#237=ORIENTED_EDGE('',*,*,#192,.T.);
#238=ORIENTED_EDGE('',*,*,#191,.T.);
#239=ORIENTED_EDGE('',*,*,#193,.F.);
#240=ORIENTED_EDGE('',*,*,#194,.F.);
#241=ORIENTED_EDGE('',*,*,#195,.T.);
#242=ORIENTED_EDGE('',*,*,#194,.T.);
#243=ORIENTED_EDGE('',*,*,#196,.F.);
#244=ORIENTED_EDGE('',*,*,#186,.F.);
#245=ORIENTED_EDGE('',*,*,#196,.T.);
#246=ORIENTED_EDGE('',*,*,#193,.T.);
#247=ORIENTED_EDGE('',*,*,#190,.T.);
#248=ORIENTED_EDGE('',*,*,#187,.T.);
#249=ORIENTED_EDGE('',*,*,#161,.T.);
#250=ORIENTED_EDGE('',*,*,#164,.T.);
#251=ORIENTED_EDGE('',*,*,#167,.T.);
#252=ORIENTED_EDGE('',*,*,#170,.T.);
#253=ORIENTED_EDGE('',*,*,#173,.T.);
#254=ORIENTED_EDGE('',*,*,#176,.T.);
#255=ORIENTED_EDGE('',*,*,#179,.T.);
#256=ORIENTED_EDGE('',*,*,#182,.T.);
#257=ORIENTED_EDGE('',*,*,#195,.F.);
#258=ORIENTED_EDGE('',*,*,#185,.F.);
#259=ORIENTED_EDGE('',*,*,#189,.F.);
#260=ORIENTED_EDGE('',*,*,#192,.F.);
#261=ORIENTED_EDGE('',*,*,#163,.T.);
#262=ORIENTED_EDGE('',*,*,#166,.T.);
#263=ORIENTED_EDGE('',*,*,#169,.T.);
#264=ORIENTED_EDGE('',*,*,#172,.T.);
#265=ORIENTED_EDGE('',*,*,#175,.T.);
#266=ORIENTED_EDGE('',*,*,#178,.T.);
#267=ORIENTED_EDGE('',*,*,#181,.T.);
#268=ORIENTED_EDGE('',*,*,#184,.T.);
#269=CYLINDRICAL_SURFACE('',#314,2.25);
#270=CYLINDRICAL_SURFACE('',#317,2.25);
#271=CYLINDRICAL_SURFACE('',#320,2.25);
#272=CYLINDRICAL_SURFACE('',#323,2.25);
#273=CYLINDRICAL_SURFACE('',#326,2.25);
#274=CYLINDRICAL_SURFACE('',#329,2.25);
#275=CYLINDRICAL_SURFACE('',#332,2.25);
#276=CYLINDRICAL_SURFACE('',#335,2.25);
#277=ADVANCED_FACE('',(#37),#269,.F.);
#278=ADVANCED_FACE('',(#38),#270,.F.);
#279=ADVANCED_FACE('',(#39),#271,.F.);
#280=ADVANCED_FACE('',(#40),#272,.F.);
#281=ADVANCED_FACE('',(#41),#273,.F.);
#282=ADVANCED_FACE('',(#42),#274,.F.);
#283=ADVANCED_FACE('',(#43),#275,.F.);
#284=ADVANCED_FACE('',(#44),#276,.F.);
#285=ADVANCED_FACE('',(#45),#31,.T.);
#286=ADVANCED_FACE('',(#46),#32,.T.);
#287=ADVANCED_FACE('',(#47),#33,.T.);
#288=ADVANCED_FACE('',(#48),#34,.T.);
#289=ADVANCED_FACE('',(#49,#15,#16,#17,#18,#19,#20,#21,#22),#35,.T.);
#290=ADVANCED_FACE('',(#50,#23,#24,#25,#26,#27,#28,#29,#30),#36,.F.);
#291=CLOSED_SHELL('',(#277,#278,#279,#280,#281,#282,#283,#284,#285,#286,
#287,#288,#289,#290));
#292=DERIVED_UNIT_ELEMENT(#295,1.);
#293=DERIVED_UNIT_ELEMENT(#506,-3.);
#294=DIMENSIONAL_EXPONENTS(1.,0.,0.,0.,0.,0.,0.);
#295=(
CONVERSION_BASED_UNIT('gram',#297)
MASS_UNIT()
NAMED_UNIT(#294)
);
#296=(
MASS_UNIT()
NAMED_UNIT(*)
SI_UNIT(.KILO.,.GRAM.)
);
#297=MASS_MEASURE_WITH_UNIT(MASS_MEASURE(0.001),#296);
#298=DERIVED_UNIT((#292,#293));
#299=MEASURE_REPRESENTATION_ITEM('density measure',
POSITIVE_RATIO_MEASURE(1.),#298);
#300=PROPERTY_DEFINITION_REPRESENTATION(#305,#302);
#301=PROPERTY_DEFINITION_REPRESENTATION(#306,#303);
#302=REPRESENTATION('material name',(#304),#503);
#303=REPRESENTATION('density',(#299),#503);
#304=DESCRIPTIVE_REPRESENTATION_ITEM('Generisch','Generisch');
#305=PROPERTY_DEFINITION('material property','material name',#513);
#306=PROPERTY_DEFINITION('material property','density of part',#513);
#307=DATE_TIME_ROLE('creation_date');
#308=APPLIED_DATE_AND_TIME_ASSIGNMENT(#309,#307,(#513));
#309=DATE_AND_TIME(#310,#311);
#310=CALENDAR_DATE(2022,12,9);
#311=LOCAL_TIME(0,0,0.,#312);
#312=COORDINATED_UNIVERSAL_TIME_OFFSET(0,0,.BEHIND.);
#313=AXIS2_PLACEMENT_3D('placement',#426,#344,#345);
#314=AXIS2_PLACEMENT_3D('',#427,#346,#347);
#315=AXIS2_PLACEMENT_3D('',#429,#348,#349);
#316=AXIS2_PLACEMENT_3D('',#432,#351,#352);
#317=AXIS2_PLACEMENT_3D('',#433,#353,#354);
#318=AXIS2_PLACEMENT_3D('',#435,#355,#356);
#319=AXIS2_PLACEMENT_3D('',#438,#358,#359);
#320=AXIS2_PLACEMENT_3D('',#439,#360,#361);
#321=AXIS2_PLACEMENT_3D('',#441,#362,#363);
#322=AXIS2_PLACEMENT_3D('',#444,#365,#366);
#323=AXIS2_PLACEMENT_3D('',#445,#367,#368);
#324=AXIS2_PLACEMENT_3D('',#447,#369,#370);
#325=AXIS2_PLACEMENT_3D('',#450,#372,#373);
#326=AXIS2_PLACEMENT_3D('',#451,#374,#375);
#327=AXIS2_PLACEMENT_3D('',#453,#376,#377);
#328=AXIS2_PLACEMENT_3D('',#456,#379,#380);
#329=AXIS2_PLACEMENT_3D('',#457,#381,#382);
#330=AXIS2_PLACEMENT_3D('',#459,#383,#384);
#331=AXIS2_PLACEMENT_3D('',#462,#386,#387);
#332=AXIS2_PLACEMENT_3D('',#463,#388,#389);
#333=AXIS2_PLACEMENT_3D('',#465,#390,#391);
#334=AXIS2_PLACEMENT_3D('',#468,#393,#394);
#335=AXIS2_PLACEMENT_3D('',#469,#395,#396);
#336=AXIS2_PLACEMENT_3D('',#471,#397,#398);
#337=AXIS2_PLACEMENT_3D('',#474,#400,#401);
#338=AXIS2_PLACEMENT_3D('',#475,#402,#403);
#339=AXIS2_PLACEMENT_3D('',#484,#408,#409);
#340=AXIS2_PLACEMENT_3D('',#490,#413,#414);
#341=AXIS2_PLACEMENT_3D('',#496,#418,#419);
#342=AXIS2_PLACEMENT_3D('',#499,#422,#423);
#343=AXIS2_PLACEMENT_3D('',#500,#424,#425);
#344=DIRECTION('axis',(0.,0.,1.));
#345=DIRECTION('refdir',(1.,0.,0.));
#346=DIRECTION('center_axis',(0.,-1.,0.));
#347=DIRECTION('ref_axis',(1.,0.,0.));
#348=DIRECTION('center_axis',(0.,-1.,0.));
#349=DIRECTION('ref_axis',(1.,0.,0.));
#350=DIRECTION('',(0.,-1.,0.));
#351=DIRECTION('center_axis',(0.,1.,0.));
#352=DIRECTION('ref_axis',(1.,0.,0.));
#353=DIRECTION('center_axis',(0.,-1.,0.));
#354=DIRECTION('ref_axis',(1.,0.,0.));
#355=DIRECTION('center_axis',(0.,-1.,0.));
#356=DIRECTION('ref_axis',(1.,0.,0.));
#357=DIRECTION('',(0.,-1.,0.));
#358=DIRECTION('center_axis',(0.,1.,0.));
#359=DIRECTION('ref_axis',(1.,0.,0.));
#360=DIRECTION('center_axis',(0.,-1.,0.));
#361=DIRECTION('ref_axis',(1.,0.,0.));
#362=DIRECTION('center_axis',(0.,-1.,0.));
#363=DIRECTION('ref_axis',(1.,0.,0.));
#364=DIRECTION('',(0.,-1.,0.));
#365=DIRECTION('center_axis',(0.,1.,0.));
#366=DIRECTION('ref_axis',(1.,0.,0.));
#367=DIRECTION('center_axis',(0.,-1.,0.));
#368=DIRECTION('ref_axis',(1.,0.,0.));
#369=DIRECTION('center_axis',(0.,-1.,0.));
#370=DIRECTION('ref_axis',(1.,0.,0.));
#371=DIRECTION('',(0.,-1.,0.));
#372=DIRECTION('center_axis',(0.,1.,0.));
#373=DIRECTION('ref_axis',(1.,0.,0.));
#374=DIRECTION('center_axis',(0.,-1.,0.));
#375=DIRECTION('ref_axis',(1.,0.,0.));
#376=DIRECTION('center_axis',(0.,-1.,0.));
#377=DIRECTION('ref_axis',(1.,0.,0.));
#378=DIRECTION('',(0.,-1.,0.));
#379=DIRECTION('center_axis',(0.,1.,0.));
#380=DIRECTION('ref_axis',(1.,0.,0.));
#381=DIRECTION('center_axis',(0.,-1.,0.));
#382=DIRECTION('ref_axis',(1.,0.,0.));
#383=DIRECTION('center_axis',(0.,-1.,0.));
#384=DIRECTION('ref_axis',(1.,0.,0.));
#385=DIRECTION('',(0.,-1.,0.));
#386=DIRECTION('center_axis',(0.,1.,0.));
#387=DIRECTION('ref_axis',(1.,0.,0.));
#388=DIRECTION('center_axis',(0.,-1.,0.));
#389=DIRECTION('ref_axis',(1.,0.,0.));
#390=DIRECTION('center_axis',(0.,-1.,0.));
#391=DIRECTION('ref_axis',(1.,0.,0.));
#392=DIRECTION('',(0.,-1.,0.));
#393=DIRECTION('center_axis',(0.,1.,0.));
#394=DIRECTION('ref_axis',(1.,0.,0.));
#395=DIRECTION('center_axis',(0.,-1.,0.));
#396=DIRECTION('ref_axis',(1.,0.,0.));
#397=DIRECTION('center_axis',(0.,-1.,0.));
#398=DIRECTION('ref_axis',(1.,0.,0.));
#399=DIRECTION('',(0.,-1.,0.));
#400=DIRECTION('center_axis',(0.,1.,0.));
#401=DIRECTION('ref_axis',(1.,0.,0.));
#402=DIRECTION('center_axis',(-1.,0.,0.));
#403=DIRECTION('ref_axis',(0.,0.,1.));
#404=DIRECTION('',(0.,0.,1.));
#405=DIRECTION('',(0.,1.,0.));
#406=DIRECTION('',(0.,0.,1.));
#407=DIRECTION('',(0.,1.,0.));
#408=DIRECTION('center_axis',(0.,0.,-1.));
#409=DIRECTION('ref_axis',(-1.,0.,0.));
#410=DIRECTION('',(-1.,0.,0.));
#411=DIRECTION('',(-1.,0.,0.));
#412=DIRECTION('',(0.,1.,0.));
#413=DIRECTION('center_axis',(1.,0.,0.));
#414=DIRECTION('ref_axis',(0.,0.,-1.));
#415=DIRECTION('',(0.,0.,-1.));
#416=DIRECTION('',(0.,0.,-1.));
#417=DIRECTION('',(0.,1.,0.));
#418=DIRECTION('center_axis',(0.,0.,1.));
#419=DIRECTION('ref_axis',(1.,0.,0.));
#420=DIRECTION('',(1.,0.,0.));
#421=DIRECTION('',(1.,0.,0.));
#422=DIRECTION('center_axis',(0.,1.,0.));
#423=DIRECTION('ref_axis',(0.,0.,1.));
#424=DIRECTION('center_axis',(0.,1.,0.));
#425=DIRECTION('ref_axis',(0.,0.,1.));
#426=CARTESIAN_POINT('',(0.,0.,0.));
#427=CARTESIAN_POINT('Origin',(-92.5,2.5,-68.5));
#428=CARTESIAN_POINT('',(-94.75,2.5,-68.5));
#429=CARTESIAN_POINT('Origin',(-92.5,2.5,-68.5));
#430=CARTESIAN_POINT('',(-94.75,0.,-68.5));
#431=CARTESIAN_POINT('',(-94.75,2.5,-68.5));
#432=CARTESIAN_POINT('Origin',(-92.5,0.,-68.5));
#433=CARTESIAN_POINT('Origin',(-92.5,2.5,56.5));
#434=CARTESIAN_POINT('',(-94.75,2.5,56.5));
#435=CARTESIAN_POINT('Origin',(-92.5,2.5,56.5));
#436=CARTESIAN_POINT('',(-94.75,0.,56.5));
#437=CARTESIAN_POINT('',(-94.75,2.5,56.5));
#438=CARTESIAN_POINT('Origin',(-92.5,0.,56.5));
#439=CARTESIAN_POINT('Origin',(60.,2.5,160.5));
#440=CARTESIAN_POINT('',(57.75,2.5,160.5));
#441=CARTESIAN_POINT('Origin',(60.,2.5,160.5));
#442=CARTESIAN_POINT('',(57.75,0.,160.5));
#443=CARTESIAN_POINT('',(57.75,2.5,160.5));
#444=CARTESIAN_POINT('Origin',(60.,0.,160.5));
#445=CARTESIAN_POINT('Origin',(-60.,2.5,-160.5));
#446=CARTESIAN_POINT('',(-62.25,2.5,-160.5));
#447=CARTESIAN_POINT('Origin',(-60.,2.5,-160.5));
#448=CARTESIAN_POINT('',(-62.25,0.,-160.5));
#449=CARTESIAN_POINT('',(-62.25,2.5,-160.5));
#450=CARTESIAN_POINT('Origin',(-60.,0.,-160.5));
#451=CARTESIAN_POINT('Origin',(92.5,2.5,-68.5));
#452=CARTESIAN_POINT('',(90.25,2.5,-68.5));
#453=CARTESIAN_POINT('Origin',(92.5,2.5,-68.5));
#454=CARTESIAN_POINT('',(90.25,0.,-68.5));
#455=CARTESIAN_POINT('',(90.25,2.5,-68.5));
#456=CARTESIAN_POINT('Origin',(92.5,0.,-68.5));
#457=CARTESIAN_POINT('Origin',(92.5,2.5,56.5));
#458=CARTESIAN_POINT('',(90.25,2.5,56.5));
#459=CARTESIAN_POINT('Origin',(92.5,2.5,56.5));
#460=CARTESIAN_POINT('',(90.25,0.,56.5));
#461=CARTESIAN_POINT('',(90.25,2.5,56.5));
#462=CARTESIAN_POINT('Origin',(92.5,0.,56.5));
#463=CARTESIAN_POINT('Origin',(60.,2.5,-160.5));
#464=CARTESIAN_POINT('',(57.75,2.5,-160.5));
#465=CARTESIAN_POINT('Origin',(60.,2.5,-160.5));
#466=CARTESIAN_POINT('',(57.75,0.,-160.5));
#467=CARTESIAN_POINT('',(57.75,2.5,-160.5));
#468=CARTESIAN_POINT('Origin',(60.,0.,-160.5));
#469=CARTESIAN_POINT('Origin',(-60.,2.5,160.5));
#470=CARTESIAN_POINT('',(-62.25,2.5,160.5));
#471=CARTESIAN_POINT('Origin',(-60.,2.5,160.5));
#472=CARTESIAN_POINT('',(-62.25,0.,160.5));
#473=CARTESIAN_POINT('',(-62.25,2.5,160.5));
#474=CARTESIAN_POINT('Origin',(-60.,0.,160.5));
#475=CARTESIAN_POINT('Origin',(-110.,0.,-165.5));
#476=CARTESIAN_POINT('',(-110.,0.,-165.5));
#477=CARTESIAN_POINT('',(-110.,0.,165.5));
#478=CARTESIAN_POINT('',(-110.,0.,-165.5));
#479=CARTESIAN_POINT('',(-110.,2.5,165.5));
#480=CARTESIAN_POINT('',(-110.,0.,165.5));
#481=CARTESIAN_POINT('',(-110.,2.5,-165.5));
#482=CARTESIAN_POINT('',(-110.,2.5,-165.5));
#483=CARTESIAN_POINT('',(-110.,0.,-165.5));
#484=CARTESIAN_POINT('Origin',(110.,0.,-165.5));
#485=CARTESIAN_POINT('',(110.,0.,-165.5));
#486=CARTESIAN_POINT('',(110.,0.,-165.5));
#487=CARTESIAN_POINT('',(110.,2.5,-165.5));
#488=CARTESIAN_POINT('',(110.,2.5,-165.5));
#489=CARTESIAN_POINT('',(110.,0.,-165.5));
#490=CARTESIAN_POINT('Origin',(110.,0.,165.5));
#491=CARTESIAN_POINT('',(110.,0.,165.5));
#492=CARTESIAN_POINT('',(110.,0.,165.5));
#493=CARTESIAN_POINT('',(110.,2.5,165.5));
#494=CARTESIAN_POINT('',(110.,2.5,165.5));
#495=CARTESIAN_POINT('',(110.,0.,165.5));
#496=CARTESIAN_POINT('Origin',(-110.,0.,165.5));
#497=CARTESIAN_POINT('',(-110.,0.,165.5));
#498=CARTESIAN_POINT('',(-110.,2.5,165.5));
#499=CARTESIAN_POINT('Origin',(0.,2.5,0.));
#500=CARTESIAN_POINT('Origin',(0.,0.,0.));
#501=UNCERTAINTY_MEASURE_WITH_UNIT(LENGTH_MEASURE(0.01),#505,
'DISTANCE_ACCURACY_VALUE',
'Maximum model space distance between geometric entities at asserted c
onnectivities');
#502=UNCERTAINTY_MEASURE_WITH_UNIT(LENGTH_MEASURE(0.01),#505,
'DISTANCE_ACCURACY_VALUE',
'Maximum model space distance between geometric entities at asserted c
onnectivities');
#503=(
GEOMETRIC_REPRESENTATION_CONTEXT(3)
GLOBAL_UNCERTAINTY_ASSIGNED_CONTEXT((#501))
GLOBAL_UNIT_ASSIGNED_CONTEXT((#505,#507,#508))
REPRESENTATION_CONTEXT('','3D')
);
#504=(
GEOMETRIC_REPRESENTATION_CONTEXT(3)
GLOBAL_UNCERTAINTY_ASSIGNED_CONTEXT((#502))
GLOBAL_UNIT_ASSIGNED_CONTEXT((#505,#507,#508))
REPRESENTATION_CONTEXT('','3D')
);
#505=(
LENGTH_UNIT()
NAMED_UNIT(*)
SI_UNIT(.MILLI.,.METRE.)
);
#506=(
LENGTH_UNIT()
NAMED_UNIT(*)
SI_UNIT(.CENTI.,.METRE.)
);
#507=(
NAMED_UNIT(*)
PLANE_ANGLE_UNIT()
SI_UNIT($,.RADIAN.)
);
#508=(
NAMED_UNIT(*)
SI_UNIT($,.STERADIAN.)
SOLID_ANGLE_UNIT()
);
#509=SHAPE_DEFINITION_REPRESENTATION(#510,#511);
#510=PRODUCT_DEFINITION_SHAPE('',$,#513);
#511=SHAPE_REPRESENTATION('',(#313),#503);
#512=PRODUCT_DEFINITION_CONTEXT('part definition',#517,'design');
#513=PRODUCT_DEFINITION(
'0912236250 - Montageplatte MBI 3625xx - Index01',
'0912236250 - Montageplatte MBI 3625xx - Index01',#514,#512);
#514=PRODUCT_DEFINITION_FORMATION('',$,#519);
#515=PRODUCT_RELATED_PRODUCT_CATEGORY(
'0912236250 - Montageplatte MBI 3625xx - Index01',
'0912236250 - Montageplatte MBI 3625xx - Index01',(#519));
#516=APPLICATION_PROTOCOL_DEFINITION('international standard',
'automotive_design',2009,#517);
#517=APPLICATION_CONTEXT(
'Core Data for Automotive Mechanical Design Process');
#518=PRODUCT_CONTEXT('part definition',#517,'mechanical');
#519=PRODUCT('0912236250 - Montageplatte MBI 3625xx - Index01',
'0912236250 - Montageplatte MBI 3625xx - Index01',$,(#518));
#520=PRESENTATION_STYLE_ASSIGNMENT((#521));
#521=SURFACE_STYLE_USAGE(.BOTH.,#524);
#522=SURFACE_STYLE_RENDERING_WITH_PROPERTIES($,#528,(#523));
#523=SURFACE_STYLE_TRANSPARENT(0.);
#524=SURFACE_SIDE_STYLE('',(#525,#522));
#525=SURFACE_STYLE_FILL_AREA(#526);
#526=FILL_AREA_STYLE('',(#527));
#527=FILL_AREA_STYLE_COLOUR('',#528);
#528=COLOUR_RGB('',0.749019607843137,0.749019607843137,0.749019607843137);
ENDSEC;
END-ISO-10303-21;
